  0
SECTION
  2
HEADER
  9
$ACADVER
  1
AC1009
  9
$INSBASE
 10
224.505656023943
 20
67.06120354402338
 30
0.0
  9
$EXTMIN
 10
224.505656023943
 20
67.06120354402338
 30
0.0
  9
$EXTMAX
 10
538.6574274305431
 20
197.6925678417669
 30
0.0
  9
$LIMMIN
 10
0.0
 20
0.0
  9
$LIMMAX
 10
420.0
 20
297.0
  9
$ORTHOMODE
 70
     0
  9
$REGENMODE
 70
     0
  9
$FILLMODE
 70
     1
  9
$QTEXTMODE
 70
     0
  9
$MIRRTEXT
 70
     0
  9
$DRAGMODE
 70
     2
  9
$LTSCALE
 40
1.0
  9
$OSMODE
 70
     0
  9
$ATTMODE
 70
     1
  9
$TEXTSIZE
 40
3.5
  9
$TRACEWID
 40
0.1
  9
$TEXTSTYLE
  7
STANDARD
  9
$CLAYER
  8
0
  9
$CELTYPE
  6
BYLAYER
  9
$CECOLOR
 62
   256
  9
$DIMSCALE
 40
1.0
  9
$DIMASZ
 40
2.0
  9
$DIMEXO
 40
1.0
  9
$DIMDLI
 40
8.0
  9
$DIMRND
 40
0.0
  9
$DIMDLE
 40
0.0
  9
$DIMEXE
 40
2.0
  9
$DIMTP
 40
0.1
  9
$DIMTM
 40
0.1
  9
$DIMTXT
 40
3.5
  9
$DIMCEN
 40
2.0
  9
$DIMTSZ
 40
0.0
  9
$DIMTOL
 70
     0
  9
$DIMLIM
 70
     0
  9
$DIMTIH
 70
     0
  9
$DIMTOH
 70
     0
  9
$DIMSE1
 70
     0
  9
$DIMSE2
 70
     0
  9
$DIMTAD
 70
     1
  9
$DIMZIN
 70
     0
  9
$DIMBLK
  1

  9
$DIMASO
 70
     1
  9
$DIMSHO
 70
     0
  9
$DIMPOST
  1

  9
$DIMAPOST
  1

  9
$DIMALT
 70
     0
  9
$DIMALTD
 70
     2
  9
$DIMALTF
 40
25.39999999999999
  9
$DIMLFAC
 40
1.0
  9
$DIMTOFL
 70
     0
  9
$DIMTVP
 40
0.0
  9
$DIMTIX
 70
     0
  9
$DIMSOXD
 70
     0
  9
$DIMSAH
 70
     0
  9
$DIMBLK1
  1

  9
$DIMBLK2
  1

  9
$DIMSTYLE
  2
*UNNAMED
  9
$DIMCLRD
 70
     0
  9
$DIMCLRE
 70
     0
  9
$DIMCLRT
 70
     0
  9
$DIMTFAC
 40
1.0
  9
$DIMGAP
 40
0.09
  9
$LUNITS
 70
     2
  9
$LUPREC
 70
     3
  9
$SKETCHINC
 40
0.1
  9
$FILLETRAD
 40
20.0
  9
$AUNITS
 70
     0
  9
$AUPREC
 70
     1
  9
$MENU
  1

  9
$ELEVATION
 40
0.0
  9
$PELEVATION
 40
0.0
  9
$THICKNESS
 40
0.0
  9
$LIMCHECK
 70
     0
  9
$BLIPMODE
 70
     0
  9
$CHAMFERA
 40
0.0
  9
$CHAMFERB
 40
0.0
  9
$SKPOLY
 70
     1
  9
$TDCREATE
 40
2448558.561252662
  9
$TDUPDATE
 40
2449393.437104513
  9
$TDINDWG
 40
0.0017501157
  9
$TDUSRTIMER
 40
0.0017501157
  9
$USRTIMER
 70
     1
  9
$ANGBASE
 50
0.0
  9
$ANGDIR
 70
     0
  9
$PDMODE
 70
     0
  9
$PDSIZE
 40
0.0
  9
$PLINEWID
 40
0.0
  9
$COORDS
 70
     2
  9
$SPLFRAME
 70
     0
  9
$SPLINETYPE
 70
     6
  9
$SPLINESEGS
 70
     8
  9
$ATTDIA
 70
     1
  9
$ATTREQ
 70
     1
  9
$HANDLING
 70
     0
  9
$HANDSEED
  5
F6
  9
$SURFTAB1
 70
     6
  9
$SURFTAB2
 70
     6
  9
$SURFTYPE
 70
     6
  9
$SURFU
 70
     6
  9
$SURFV
 70
     6
  9
$UCSNAME
  2

  9
$UCSORG
 10
0.0
 20
0.0
 30
0.0
  9
$UCSXDIR
 10
1.0
 20
0.0
 30
0.0
  9
$UCSYDIR
 10
0.0
 20
1.0
 30
0.0
  9
$PUCSNAME
  2

  9
$PUCSORG
 10
0.0
 20
0.0
 30
0.0
  9
$PUCSXDIR
 10
1.0
 20
0.0
 30
0.0
  9
$PUCSYDIR
 10
0.0
 20
1.0
 30
0.0
  9
$USERI1
 70
     0
  9
$USERI2
 70
     3
  9
$USERI3
 70
    15
  9
$USERI4
 70
     0
  9
$USERI5
 70
     0
  9
$USERR1
 40
1.0
  9
$USERR2
 40
1.0
  9
$USERR3
 40
0.0
  9
$USERR4
 40
1.0
  9
$USERR5
 40
0.0
  9
$WORLDVIEW
 70
     1
  9
$SHADEDGE
 70
     3
  9
$SHADEDIF
 70
    70
  9
$TILEMODE
 70
     1
  9
$MAXACTVP
 70
    16
  9
$PINSBASE
 10
0.0
 20
0.0
 30
0.0
  9
$PLIMCHECK
 70
     0
  9
$PEXTMIN
 10
1.000000000000000E+20
 20
1.000000000000000E+20
 30
1.000000000000000E+20
  9
$PEXTMAX
 10
-1.000000000000000E+20
 20
-1.000000000000000E+20
 30
-1.000000000000000E+20
  9
$PLIMMIN
 10
0.0
 20
0.0
  9
$PLIMMAX
 10
12.0
 20
9.0
  9
$UNITMODE
 70
     0
  9
$VISRETAIN
 70
     0
  9
$PLINEGEN
 70
     0
  9
$PSLTSCALE
 70
     0
  9
$TREEDEPTH
 70
  3020
  9
$DWGCODEPAGE
  3
undefined
  0
ENDSEC
  0
SECTION
  2
TABLES
  0
TABLE
  2
VPORT
 70
     2
  0
VPORT
  2
*ACTIVE
 70
     0
 10
0.0
 20
0.0
 11
1.0
 21
1.0
 12
381.5815417272431
 22
190.1927241165255
 13
0.0
 23
0.0
 14
1.0
 24
1.0
 15
10.0
 25
10.0
 16
0.0
 26
0.0
 36
1.0
 17
0.0
 27
0.0
 37
0.0
 40
246.2630411450043
 41
1.275675675675675
 42
50.0
 43
0.0
 44
0.0
 50
0.0
 51
0.0
 71
     0
 72
 20000
 73
     1
 74
     0
 75
     0
 76
     0
 77
     0
 78
     0
  0
ENDTAB
  0
TABLE
  2
LTYPE
 70
     2
  0
LTYPE
  2
AUSGEZOGEN
 70
    64
  3
Solid line
 72
    65
 73
     0
 40
0.0
  0
LTYPE
  2
ITEM-STRICHPGR
 70
    64
  3
____ . ____ . ____ . ____ . ____ . ____ . ____
 72
    65
 73
     4
 40
15.0
 49
10.0
 49
-2.5
 49
0.0
 49
-2.5
  0
ENDTAB
  0
TABLE
  2
LAYER
 70
     5
  0
LAYER
  2
0
 70
     0
 62
     7
  6
AUSGEZOGEN
  0
LAYER
  2
ITEM_50
 70
    64
 62
     7
  6
AUSGEZOGEN
  0
LAYER
  2
ITEM_25
 70
    64
 62
     3
  6
AUSGEZOGEN
  0
LAYER
  2
ITEM_HILFE
 70
    64
 62
     3
  6
AUSGEZOGEN
  0
LAYER
  2
ITEM_STPG
 70
    64
 62
     4
  6
ITEM-STRICHPGR
  0
ENDTAB
  0
TABLE
  2
STYLE
 70
     1
  0
STYLE
  2
STANDARD
 70
     0
 40
0.0
 41
1.0
 50
0.0
 71
     0
 42
3.5
  3
iso
  4

  0
ENDTAB
  0
TABLE
  2
VIEW
 70
     0
  0
ENDTAB
  0
TABLE
  2
UCS
 70
     0
  0
ENDTAB
  0
TABLE
  2
APPID
 70
     1
  0
APPID
  2
ACAD
 70
    64
  0
ENDTAB
  0
TABLE
  2
DIMSTYLE
 70
     0
  0
ENDTAB
  0
ENDSEC
  0
SECTION
  2
BLOCKS
  0
ENDSEC
  0
SECTION
  2
ENTITIES
  0
POINT
  8
ITEM_HILFE
 10
229.3315417272367
 20
194.3547953532623
 30
0.0
  0
POINT
  8
ITEM_HILFE
 10
229.3315417272367
 20
114.3547953532623
 30
0.0
  0
POINT
  8
ITEM_HILFE
 10
349.3315417272367
 20
114.3547953532623
 30
0.0
  0
POINT
  8
ITEM_HILFE
 10
349.3315417272367
 20
194.3547953532623
 30
0.0
  0
POINT
  8
ITEM_HILFE
 10
289.331541727243
 20
122.3547953532561
 30
0.0
  0
POINT
  8
ITEM_HILFE
 10
341.081541727243
 20
154.3547953532561
 30
0.0
  0
POINT
  8
ITEM_HILFE
 10
237.581541727243
 20
154.3547953532561
 30
0.0
  0
POINT
  8
ITEM_HILFE
 10
262.8150374327323
 20
127.8382910587758
 30
0.0
  0
POINT
  8
ITEM_HILFE
 10
315.8480460217317
 20
127.8382910587537
 30
0.0
  0
POINT
  8
ITEM_HILFE
 10
315.8480460217233
 20
180.8712996477667
 30
0.0
  0
POINT
  8
ITEM_HILFE
 10
289.331541727243
 20
186.3547953532561
 30
0.0
  0
POINT
  8
ITEM_HILFE
 10
262.8150374327407
 20
180.8712996477448
 30
0.0
  0
POINT
  8
ITEM_HILFE
 10
289.3315417272399
 20
154.3547953532591
 30
0.0
  0
POINT
  8
ITEM_HILFE
 10
229.3315417272399
 20
154.3547953532592
 30
0.0
  0
POINT
  8
ITEM_HILFE
 10
289.3315417272399
 20
114.3547953532592
 30
0.0
  0
POINT
  8
ITEM_HILFE
 10
349.3315417272399
 20
154.3547953532592
 30
0.0
  0
POINT
  8
ITEM_HILFE
 10
289.3315417272399
 20
194.3547953532591
 30
0.0
  0
CIRCLE
  8
ITEM_50
 10
262.8150374327323
 20
127.8382910587758
 30
0.0
 40
4.5
  0
CIRCLE
  8
ITEM_50
 10
262.8150374327323
 20
127.8382910587758
 30
0.0
 40
7.5
  0
CIRCLE
  8
ITEM_50
 10
262.8150374327407
 20
180.8712996477448
 30
0.0
 40
4.5
  0
CIRCLE
  8
ITEM_50
 10
262.8150374327407
 20
180.8712996477448
 30
0.0
 40
7.5
  0
CIRCLE
  8
ITEM_50
 10
315.8480460217233
 20
180.8712996477667
 30
0.0
 40
4.5
  0
CIRCLE
  8
ITEM_50
 10
315.8480460217233
 20
180.8712996477667
 30
0.0
 40
7.5
  0
CIRCLE
  8
ITEM_50
 10
315.8480460217317
 20
127.8382910587537
 30
0.0
 40
4.5
  0
CIRCLE
  8
ITEM_50
 10
315.8480460217317
 20
127.8382910587537
 30
0.0
 40
7.5
  0
LINE
  8
ITEM_STPG
 10
237.581541727243
 20
160.6483871624984
 30
0.0
 11
237.581541727243
 21
148.512489688233
 31
0.0
  0
LINE
  8
ITEM_STPG
 10
341.081541727243
 20
160.6483871624984
 30
0.0
 11
341.081541727243
 21
148.512489688233
 31
0.0
  0
LINE
  8
ITEM_STPG
 10
289.3315417272399
 20
111.0170228647452
 30
0.0
 11
289.3315417272399
 21
197.4973297185297
 31
0.0
  0
LINE
  8
ITEM_STPG
 10
355.3194439559945
 20
154.3547953532592
 30
0.0
 11
224.505656023943
 21
154.3547953532592
 31
0.0
  0
ARC
  8
ITEM_50
 10
289.331541727243
 20
154.3547953532561
 30
0.0
 40
30.0
 50
272.6489395064693
 51
87.35106049353062
  0
ARC
  8
ITEM_50
 10
289.331541727243
 20
186.3547953532561
 30
0.0
 40
4.5
 50
210.0574467300297
 51
329.9425532699702
  0
ARC
  8
ITEM_50
 10
289.331541727243
 20
122.3547953532561
 30
0.0
 40
4.5
 50
30.0574467300297
 51
149.9425532699702
  0
ARC
  8
ITEM_25
 10
289.331541727243
 20
122.3547953532561
 30
0.0
 40
2.999999999999999
 50
260.9999999999997
 51
189.0000000000002
  0
CIRCLE
  8
ITEM_50
 10
289.331541727243
 20
122.3547953532561
 30
0.0
 40
2.46
  0
ARC
  8
ITEM_25
 10
289.331541727243
 20
186.3547953532561
 30
0.0
 40
2.999999999999999
 50
260.9999999999997
 51
189.0000000000002
  0
CIRCLE
  8
ITEM_50
 10
289.331541727243
 20
186.3547953532561
 30
0.0
 40
2.46
  0
ARC
  8
ITEM_25
 10
341.081541727243
 20
154.3547953532561
 30
0.0
 40
3.999999999999988
 50
261.0
 51
188.9999999999998
  0
CIRCLE
  8
ITEM_50
 10
341.081541727243
 20
154.3547953532561
 30
0.0
 40
3.325
  0
ARC
  8
ITEM_25
 10
237.581541727243
 20
154.3547953532561
 30
0.0
 40
3.999999999999985
 50
261.0000000000001
 51
188.9999999999998
  0
CIRCLE
  8
ITEM_50
 10
237.581541727243
 20
154.3547953532561
 30
0.0
 40
3.325
  0
ARC
  8
ITEM_50
 10
289.331541727243
 20
154.3547953532561
 30
0.0
 40
30.0
 50
92.64893950646936
 51
267.3510604935306
  0
CIRCLE
  8
ITEM_50
 10
289.331541727243
 20
154.3547953532561
 30
0.0
 40
11.0
  0
CIRCLE
  8
ITEM_50
 10
289.331541727243
 20
154.3547953532561
 30
0.0
 40
10.0
  0
LINE
  8
ITEM_50
 10
349.3315417272399
 20
118.3547953532592
 30
0.0
 11
349.3315417272399
 21
190.3547953532591
 31
0.0
  0
ARC
  8
ITEM_50
 10
345.3315417272399
 20
190.3547953532591
 30
0.0
 40
4.0
 50
0.0
 51
90.0
  0
LINE
  8
ITEM_50
 10
345.3315417272399
 20
194.3547953532591
 30
0.0
 11
233.3315417272399
 21
194.3547953532591
 31
0.0
  0
ARC
  8
ITEM_50
 10
233.3315417272399
 20
190.3547953532591
 30
0.0
 40
4.0
 50
90.0
 51
180.0
  0
LINE
  8
ITEM_50
 10
229.3315417272399
 20
190.3547953532591
 30
0.0
 11
229.3315417272399
 21
118.3547953532592
 31
0.0
  0
ARC
  8
ITEM_50
 10
233.3315417272399
 20
118.3547953532592
 30
0.0
 40
4.0
 50
180.0
 51
270.0
  0
LINE
  8
ITEM_50
 10
233.3315417272399
 20
114.3547953532592
 30
0.0
 11
345.3315417272399
 21
114.3547953532592
 31
0.0
  0
ARC
  8
ITEM_50
 10
345.3315417272399
 20
118.3547953532592
 30
0.0
 40
4.0
 50
270.0
 51
0.0
  0
POINT
  8
ITEM_HILFE
 10
393.8315417272431
 20
154.354795353247
 30
0.0
  0
POINT
  8
ITEM_HILFE
 10
391.8315417272431
 20
154.3547953532474
 30
0.0
  0
LINE
  8
ITEM_50
 10
390.3315417272431
 20
124.3547953532325
 30
0.0
 11
391.8315417272431
 21
124.3547953532325
 31
0.0
  0
LINE
  8
ITEM_50
 10
391.8315417272431
 20
124.3547953532325
 30
0.0
 11
391.8315417272431
 21
184.3547953532325
 31
0.0
  0
LINE
  8
ITEM_50
 10
391.8315417272431
 20
143.3547953532474
 30
0.0
 11
393.8315417272431
 21
143.3547953532474
 31
0.0
  0
LINE
  8
ITEM_50
 10
393.8315417272431
 20
143.3547953532474
 30
0.0
 11
393.8315417272431
 21
165.3547953532466
 31
0.0
  0
LINE
  8
ITEM_50
 10
393.8315417272431
 20
165.3547953532466
 30
0.0
 11
391.8315417272431
 21
165.3547953532466
 31
0.0
  0
LINE
  8
ITEM_50
 10
391.8315417272431
 20
184.3547953532325
 30
0.0
 11
390.3315417272431
 21
184.3547953532325
 31
0.0
  0
ARC
  8
ITEM_50
 10
386.3315417272431
 20
190.3547953532439
 30
0.0
 40
4.0
 50
0.0
 51
90.0
  0
LINE
  8
ITEM_STPG
 10
396.1743236616295
 20
154.3547953532465
 30
0.0
 11
360.4299382051682
 21
154.3547953532537
 31
0.0
  0
LINE
  8
ITEM_STPG
 10
396.6251335364853
 20
122.3547953532471
 30
0.0
 11
360.5708491828476
 21
122.3547953532471
 31
0.0
  0
LINE
  8
ITEM_STPG
 10
396.6251335364853
 20
186.3547953532471
 30
0.0
 11
360.2875249502379
 21
186.3547953532471
 31
0.0
  0
ARC
  8
ITEM_50
 10
386.3315417272431
 20
118.3547953532439
 30
0.0
 40
4.0
 50
270.0
 51
0.0
  0
LINE
  8
ITEM_50
 10
390.3315417272431
 20
118.3547953532439
 30
0.0
 11
390.3315417272428
 21
190.3547953532439
 31
0.0
  0
LINE
  8
ITEM_50
 10
364.3315417272431
 20
114.3547953532439
 30
0.0
 11
386.3315417272399
 21
114.3547953532439
 31
0.0
  0
LINE
  8
ITEM_50
 10
364.3315417272431
 20
114.3547953532439
 30
0.0
 11
364.3315417272431
 21
194.3547953532439
 31
0.0
  0
LINE
  8
ITEM_50
 10
386.3315417272399
 20
194.3547953532439
 30
0.0
 11
364.3315417272431
 21
194.3547953532439
 31
0.0
  0
POINT
  8
ITEM_HILFE
 10
364.3315417272431
 20
114.3547953532439
 30
0.0
  0
POINT
  8
ITEM_HILFE
 10
364.3315417272431
 20
122.354795353247
 30
0.0
  0
POINT
  8
ITEM_HILFE
 10
364.3315417272431
 20
154.354795353253
 30
0.0
  0
POINT
  8
ITEM_HILFE
 10
364.3315417272431
 20
186.354795353247
 30
0.0
  0
POINT
  8
ITEM_HILFE
 10
364.3315417272431
 20
194.3547953532439
 30
0.0
  0
POINT
  8
ITEM_HILFE
 10
390.3315417272428
 20
186.354795353247
 30
0.0
  0
POINT
  8
ITEM_HILFE
 10
390.3315417272431
 20
122.354795353247
 30
0.0
  0
POINT
  8
ITEM_HILFE
 10
390.331541727243
 20
154.3547953532477
 30
0.0
  0
POINT
  8
ITEM_HILFE
 10
390.3315417272431
 20
114.3547953532439
 30
0.0
  0
POINT
  8
ITEM_HILFE
 10
390.3315417272428
 20
194.3547953532439
 30
0.0
  0
POINT
  8
ITEM_HILFE
 10
289.3315417272338
 20
69.85479535326561
 30
0.0
  0
POINT
  8
ITEM_HILFE
 10
289.3315417272342
 20
71.85479535326555
 30
0.0
  0
LINE
  8
ITEM_50
 10
309.1112755653059
 20
85.35479535326567
 30
0.0
 11
345.331541727237
 21
85.35479535326567
 31
0.0
  0
LINE
  8
ITEM_50
 10
233.3315417272369
 20
85.35479535326572
 30
0.0
 11
269.5518078891869
 21
85.35479535326567
 31
0.0
  0
LINE
  8
ITEM_50
 10
305.1112755653028
 20
99.35479535326237
 30
0.0
 11
305.1112755653027
 21
89.35479535326561
 31
0.0
  0
ARC
  8
ITEM_50
 10
309.1112755653027
 20
89.35479535326561
 30
0.0
 40
4.0
 50
179.9999999999999
 51
270.0
  0
LINE
  8
ITEM_50
 10
273.5518078891838
 20
89.35479535326561
 30
0.0
 11
273.5518078891838
 21
99.35479535326243
 31
0.0
  0
ARC
  8
ITEM_50
 10
269.5518078891838
 20
89.35479535326561
 30
0.0
 40
4.0
 50
270.0
 51
0.0
  0
POINT
  8
ITEM_HILFE
 10
349.3315417272433
 20
73.35479535326248
 30
0.0
  0
POINT
  8
ITEM_HILFE
 10
349.3315417272433
 20
85.35479535326254
 30
0.0
  0
POINT
  8
ITEM_HILFE
 10
229.3315417272433
 20
85.35479535326254
 30
0.0
  0
POINT
  8
ITEM_HILFE
 10
229.3315417272433
 20
73.35479535326248
 30
0.0
  0
POINT
  8
ITEM_HILFE
 10
341.0815417272345
 20
85.35479535326561
 30
0.0
  0
POINT
  8
ITEM_HILFE
 10
341.0815417272345
 20
73.35479535326584
 30
0.0
  0
POINT
  8
ITEM_HILFE
 10
289.3315417272398
 20
99.35479535326243
 30
0.0
  0
POINT
  8
ITEM_HILFE
 10
237.5815417272345
 20
85.35479535326561
 30
0.0
  0
POINT
  8
ITEM_HILFE
 10
237.5815417272345
 20
73.35479535326561
 30
0.0
  0
POINT
  8
ITEM_HILFE
 10
289.3315417272345
 20
73.35479535326572
 30
0.0
  0
LINE
  8
ITEM_50
 10
246.3315417272401
 20
89.35479535326561
 30
0.0
 11
246.3315417272401
 21
99.35479535326243
 31
0.0
  0
LINE
  8
ITEM_50
 10
246.3315417272401
 20
99.35479535326243
 30
0.0
 11
332.3315417272401
 21
99.35479535326237
 31
0.0
  0
LINE
  8
ITEM_50
 10
332.3315417272401
 20
99.35479535326237
 30
0.0
 11
332.3315417272401
 21
89.35479535326561
 31
0.0
  0
ARC
  8
ITEM_50
 10
336.3315417272401
 20
89.35479535326561
 30
0.0
 40
4.0
 50
179.9999999999999
 51
270.0
  0
ARC
  8
ITEM_50
 10
242.3315417272401
 20
89.35479535326561
 30
0.0
 40
4.0
 50
270.0
 51
0.0
  0
LINE
  8
ITEM_50
 10
259.3315417272193
 20
73.35479535326561
 30
0.0
 11
259.3315417272193
 21
71.85479535326561
 31
0.0
  0
LINE
  8
ITEM_50
 10
259.3315417272193
 20
71.85479535326561
 30
0.0
 11
319.3315417272193
 21
71.85479535326561
 31
0.0
  0
LINE
  8
ITEM_50
 10
278.3315417272342
 20
71.85479535326561
 30
0.0
 11
278.3315417272342
 21
69.85479535326561
 31
0.0
  0
LINE
  8
ITEM_50
 10
278.3315417272342
 20
69.85479535326561
 30
0.0
 11
300.3315417272334
 21
69.85479535326561
 31
0.0
  0
LINE
  8
ITEM_50
 10
300.3315417272334
 20
69.85479535326561
 30
0.0
 11
300.3315417272334
 21
71.85479535326561
 31
0.0
  0
LINE
  8
ITEM_50
 10
319.3315417272193
 20
71.85479535326561
 30
0.0
 11
319.3315417272193
 21
73.35479535326561
 31
0.0
  0
ARC
  8
ITEM_50
 10
345.3315417272369
 20
77.35479535326561
 30
0.0
 40
4.0
 50
270.0
 51
0.0
  0
LINE
  8
ITEM_50
 10
349.3315417272369
 20
77.35479535326561
 30
0.0
 11
349.3315417272369
 21
81.35479535326561
 31
0.0
  0
ARC
  8
ITEM_50
 10
345.3315417272369
 20
81.35479535326561
 30
0.0
 40
4.0
 50
0.0
 51
90.0
  0
ARC
  8
ITEM_50
 10
233.3315417272369
 20
81.35479535326561
 30
0.0
 40
4.0
 50
90.0
 51
180.0
  0
LINE
  8
ITEM_STPG
 10
289.3315417272333
 20
67.51201341887923
 30
0.0
 11
289.3315417272405
 21
102.5055780812052
 31
0.0
  0
LINE
  8
ITEM_STPG
 10
237.5815417272345
 20
67.06120354402338
 30
0.0
 11
237.5815417272345
 21
90.62121406747604
 31
0.0
  0
LINE
  8
ITEM_STPG
 10
341.0815417272345
 20
67.06120354402338
 30
0.0
 11
341.0815417272345
 21
90.86636300635933
 31
0.0
  0
LINE
  8
ITEM_50
 10
229.3315417272369
 20
81.35479535326561
 30
0.0
 11
229.3315417272369
 21
77.35479535326561
 31
0.0
  0
ARC
  8
ITEM_50
 10
233.3315417272369
 20
77.35479535326561
 30
0.0
 40
4.0
 50
180.0
 51
270.0
  0
LINE
  8
ITEM_50
 10
233.3315417272369
 20
73.35479535326561
 30
0.0
 11
345.3315417272369
 21
73.35479535326584
 31
0.0
  0
POINT
  8
ITEM_HILFE
 10
533.8315417272494
 20
194.3547953532498
 30
0.0
  0
POINT
  8
ITEM_HILFE
 10
533.8315417272494
 20
114.3547953532498
 30
0.0
  0
POINT
  8
ITEM_HILFE
 10
413.8315417272494
 20
194.3547953532498
 30
0.0
  0
POINT
  8
ITEM_HILFE
 10
413.8315417272494
 20
114.3547953532498
 30
0.0
  0
POINT
  8
ITEM_HILFE
 10
473.8315417272432
 20
122.354795353256
 30
0.0
  0
POINT
  8
ITEM_HILFE
 10
473.8315417272432
 20
186.354795353256
 30
0.0
  0
POINT
  8
ITEM_HILFE
 10
525.5815417272432
 20
154.354795353256
 30
0.0
  0
POINT
  8
ITEM_HILFE
 10
422.0815417272431
 20
154.354795353256
 30
0.0
  0
POINT
  8
ITEM_HILFE
 10
447.3150374327303
 20
180.8712996477584
 30
0.0
  0
POINT
  8
ITEM_HILFE
 10
500.3480460217297
 20
180.8712996477363
 30
0.0
  0
POINT
  8
ITEM_HILFE
 10
500.3480460217214
 20
127.8382910587673
 30
0.0
  0
POINT
  8
ITEM_HILFE
 10
447.3150374327387
 20
127.8382910587454
 30
0.0
  0
POINT
  8
ITEM_HILFE
 10
533.8315417272463
 20
154.3547953532529
 30
0.0
  0
POINT
  8
ITEM_HILFE
 10
413.8315417272463
 20
154.3547953532529
 30
0.0
  0
POINT
  8
ITEM_HILFE
 10
473.8315417272463
 20
114.3547953532529
 30
0.0
  0
POINT
  8
ITEM_HILFE
 10
473.8315417272463
 20
194.3547953532529
 30
0.0
  0
POINT
  8
ITEM_HILFE
 10
473.8315417272463
 20
154.3547953532529
 30
0.0
  0
CIRCLE
  8
ITEM_50
 10
500.3480460217214
 20
127.8382910587673
 30
0.0
 40
4.5
  0
CIRCLE
  8
ITEM_50
 10
500.3480460217297
 20
180.8712996477363
 30
0.0
 40
4.5
  0
CIRCLE
  8
ITEM_50
 10
447.3150374327303
 20
180.8712996477584
 30
0.0
 40
4.5
  0
CIRCLE
  8
ITEM_50
 10
447.3150374327387
 20
127.8382910587454
 30
0.0
 40
4.5
  0
ARC
  8
ITEM_50
 10
473.8315417272463
 20
154.3547953532529
 30
0.0
 40
43.0
 50
111.528904405572
 51
248.4710955944281
  0
ARC
  8
ITEM_50
 10
473.8315417272463
 20
154.3547953532529
 30
0.0
 40
43.0
 50
291.5289044055718
 51
68.471095594428
  0
CIRCLE
  8
ITEM_50
 10
473.8315417272463
 20
154.3547953532529
 30
0.0
 40
27.5
  0
LINE
  8
ITEM_STPG
 10
525.5815417272432
 20
148.0612035440138
 30
0.0
 11
525.5815417272432
 21
160.1971010182791
 31
0.0
  0
LINE
  8
ITEM_STPG
 10
422.0815417272431
 20
148.0612035440138
 30
0.0
 11
422.0815417272431
 21
160.1971010182791
 31
0.0
  0
LINE
  8
ITEM_STPG
 10
473.8315417272463
 20
197.6925678417669
 30
0.0
 11
473.8315417272463
 21
111.2122609879825
 31
0.0
  0
LINE
  8
ITEM_STPG
 10
407.8436394984917
 20
154.3547953532529
 30
0.0
 11
538.6574274305431
 21
154.3547953532529
 31
0.0
  0
CIRCLE
  8
ITEM_50
 10
473.8315417272432
 20
154.354795353256
 30
0.0
 40
10.0
  0
CIRCLE
  8
ITEM_50
 10
525.5815417272432
 20
154.354795353256
 30
0.0
 40
3.325
  0
ARC
  8
ITEM_25
 10
525.5815417272432
 20
154.354795353256
 30
0.0
 40
3.999999999999985
 50
81.00000000000015
 51
8.999999999999847
  0
CIRCLE
  8
ITEM_50
 10
422.0815417272431
 20
154.354795353256
 30
0.0
 40
3.325
  0
ARC
  8
ITEM_25
 10
422.0815417272431
 20
154.354795353256
 30
0.0
 40
3.999999999999988
 50
81.0
 51
8.999999999999847
  0
CIRCLE
  8
ITEM_50
 10
473.8315417272432
 20
122.354795353256
 30
0.0
 40
2.46
  0
ARC
  8
ITEM_25
 10
473.8315417272432
 20
122.354795353256
 30
0.0
 40
2.999999999999999
 50
80.99999999999974
 51
9.000000000000254
  0
CIRCLE
  8
ITEM_50
 10
473.8315417272432
 20
186.354795353256
 30
0.0
 40
2.46
  0
ARC
  8
ITEM_25
 10
473.8315417272432
 20
186.354795353256
 30
0.0
 40
2.999999999999999
 50
80.99999999999974
 51
9.000000000000254
  0
LINE
  8
ITEM_50
 10
413.8315417272463
 20
190.3547953532529
 30
0.0
 11
413.8315417272463
 21
118.3547953532529
 31
0.0
  0
ARC
  8
ITEM_50
 10
417.8315417272463
 20
118.3547953532529
 30
0.0
 40
4.0
 50
180.0
 51
270.0
  0
LINE
  8
ITEM_50
 10
417.8315417272463
 20
114.3547953532529
 30
0.0
 11
529.8315417272463
 21
114.3547953532529
 31
0.0
  0
ARC
  8
ITEM_50
 10
529.8315417272463
 20
118.3547953532529
 30
0.0
 40
4.0
 50
270.0
 51
0.0
  0
LINE
  8
ITEM_50
 10
533.8315417272463
 20
118.3547953532529
 30
0.0
 11
533.8315417272463
 21
190.3547953532529
 31
0.0
  0
ARC
  8
ITEM_50
 10
529.8315417272463
 20
190.3547953532529
 30
0.0
 40
4.0
 50
0.0
 51
90.0
  0
LINE
  8
ITEM_50
 10
529.8315417272463
 20
194.3547953532529
 30
0.0
 11
417.8315417272463
 21
194.3547953532529
 31
0.0
  0
ARC
  8
ITEM_50
 10
417.8315417272463
 20
190.3547953532529
 30
0.0
 40
4.0
 50
90.0
 51
180.0
  0
ENDSEC
  0
EOF
